30 nov. 2010

Trance Head Lollipop Honey [Togainu Doujin]

Togainu no chi +18
[Abrito X Inu]
Trance Head Lollipop Honey
Idioma : English
Sin contra

Este es un fabuloso Doujinshi que he encontrado por ahí y que me he dispuesto a descargarlo, leerlo y subirlo por mediafire. Esta en un archivo zip y lo he mantenido tal y como lo he descargado yo , es decir , he dejado lo que son imágenes de créditos de los traductores y esas cosas...
aquí un poco del Doujin cuco *u*
AVANCE
Y mi página favorita es de esta escena:
Si os gusta Togainu y amáis a Inu este es vuestro Doujin de la vida. Suena raro. Bastante raro. Me he enamorado del Doujin *u* me gustaría tenerlo original en mis manos y así contemplarlo siempre y a todas horas ; cuando estoy al w.c , por la noche, en mi camita , en el instituto..en en instituto creo que no XD
¿creeis que es un buen aporte?
Byee byee~~!

P.D: Simplemente descargarlo si queréis ser felices.

WHY

Chicos/as!
Si no habéis jugado nunca al FF7 Crisis Core ya va siendo hora de que lo juguéis pero el comprado no bajado.
El FF7 Crisis Core es un videojuego que trata sobre lo que paso siete años antes del FF7 normal y corriente que todo el mundo conoce con el nene Cloud y con el fortachón de Sephiroth y los compis.
Es un poco lógico el de que va a ir y como va a acabar...
Bueno os comentaba sobre el Crisis core porque ayer me puse a practicar con la guitarra el tema de "Why" el ending impactante que me hizo llorar de lo triste que es. Solo de recordarlo me pongo a llorar otra vez.
Aghh!! Ahí están mis lagrimas ! ¿¿Como puedo ser tan sensible??

Bueno aquí los personajes principales que aparecen en el Crisis Core:
Zack Fair ( el prota o tu mismo) , Cloud Strife ( con un comportamiento bastante alegre y de "Zack eres mi ídolo") , Sephiroth ( con un aspecto de menos viejo y toh sexy), Angeal Hewley (el ídolo de Zack) , Genesis ( Gackt con el libro de Loveless viciado a leer en voz alta ) , Aerith ( mas mona que nunca , me enamore de ella cuando caí del techo de la iglesia como Cloud en el FF7 normal).
Sobre los otros personajes aparecen los Turcos ( Tseng , Cissnei , Rude y Reno) y también aparece Tifa ( nunca olvidaré lo que me dijo ) Lazard , y los tios chungos de por ahí como el Hollander ese y el Hojo.
En fin aquí os dejo la partitura y un video de alguien tocándola. Naturalmente ese alguien no soy yo.

Why
Crisis Core: Final Fantasy VII
Composed by Takeharu Ishimoto
Tabbed by Richard Schaefer (archard)
5/13/08

e-------------------------
B-------------------------
G--5-7-5--7--5-7s9--------
D----------------------7--
A-------------------------
E-------------------------


e-----------------------------
B-----------------------------
G--5-7-5--7--5--5s7--5-5------
D--------------------------5--
A-----------------------------
E-----------------------------


e-------------------------
B-------------------------
G--5-7-5--7--5-7s9--------
D----------------------7--
A-------------------------
E-------------------------


e--------------------------
B------10--8--8------------
G----------------9--9---7--
D--5-5---------------------
A--------------------------
E--------------------------


e---------------------------------------------------
B------5-----------5-----------5-8--6--6--5--5------
G--5-7---------5-7---------5-7-------------------7--
D--------7-----------7------------------------------
A---------------------------------------------------
E---------------------------------------------------


e------------------------8----------
B------5-----------5-8-6---5--5-----
G--5-7---------5-7---------------7--
D--------7--------------------------
A-----------------------------------
E-----------------------------------


e------8-8--8s12------------------------------------------
B--/8--------------8-8--8s10---8---8---8-8h10--8----------
G--------------------------------9---9-----------9--7-----
D-----------------------------------------------------10--
A---------------------------------------------------------
E---------------------------------------------------------


e--8-8--8s12-----------------------------
B--------------8-8--8s10---8---8---8h10--
G----------------------------9---9-------
D----------------------------------------
A----------------------------------------
E----------------------------------------


e------------------------------------------------5---------
B------------------------------------------5--8----5-------
G----7-5-7-5-7--5-7--5-7s9----7-5-7-5-7--5------------7-5--
D--7-------------------------------------------------------
A----------------------------------------------------------
E----------------------------------------------------------


e-----------------------------------------
B-----------------------------------------
G--7p5-----7br9----5-7-5--7--5--7s9-------
D--------------------------------------7--
A-----------------------------------------
E-----------------------------------------


e-------------------------
B-------------------------
G--5-7-5--7--5--5s7--5----
D----------------------5--
A-------------------------
E-------------------------


e-------------------------
B-------------------------
G--5-7-5--7--5-7s9--------
D----------------------7--
A-------------------------
E-------------------------


e--------------------------
B------10--8--8------------
G----------------9--9---7--
D--5-5---------------------
A--------------------------
E--------------------------


e---------------------------------------------------
B------5-----------5-----------5-8--6--6--5--5------
G--5-7---------5-7---------5-7-------------------7--
D--------7-----------7------------------------------
A---------------------------------------------------
E---------------------------------------------------


e------------------------8----------
B------5-----------5-8-6---5--5-----
G--5-7---------5-7---------------7--
D--------7--------------------------
A-----------------------------------
E-----------------------------------


e--8---8s12--
B------------
G------------
D------------
A------------
E------------




¿Os mola? A mi si. Ya me veis en casa dale que te pego a las cuerdecitas :)
Byeee byee!!

P.D: Espero que vosotros también intentéis tocarla en vuestras casas con el corazón.

29 nov. 2010

Nada más que una pequeña observación

El otro día ...para que mentiros , hoy mismo me he topado de nuevo con el señorito Gackt y sus vídeos chupipondis de Wonda.
Simplemente observadlo atentamente.





Me da bastante gracia su interpretación.
VIVA EL HERMOSO!

P.D: Si ya se que esta entrada no se sabe de donde a salido ni porque he tocado este tema tan delicado con todos vosotros pero había algo dentro de mi que me decía que os lo tenia que enseñar.

27 nov. 2010

Dogs: Bullets & Carnage

YaY!! De vuelta aquí . ¿Os gusta como quedó el blog? Yo creo que el color azul simboliza más la navidad que los papa noeles que se ven todos los días en alguna tienda del barrio. Bueno , que bien que se acerque pero que mal que se acerque por las notas. He suspendido Matemáticas ... casi me pongo a llorar de la desilusión que me dio el profesor T. pero me dijo que de seguro que apruebo al siguiente. T^T que bueno es mi profe. Bueno hoy os quería hablar de un anime que dije que me iba a ver el primer ova pero que al final me vi todos los ovas. La serie se llama como el título de este post : Dogs : Bullet and Carnage.


Los ovas en mi opinión han estado bastante "vacios" pero suponiendo que el manga esta super elaborado (que es verdad) y tiene una buenisima trama , vale la pena verlos para conocer un poco a estos personajes. Los ovas son como una presentación de cada protagonista o personaje principal en la trama , es decir , hay cuatro ovas y cada uno corresponde a uno de los personajes.
¿Y de que va? Hahaha eso es lo divertido ya que no os lo voy a decir para así daros curiosidad y que os vayais a la wiki a buscarlo . En fin...ya se que os lo podría decir pero la verdad no me apetece escribir mucho hoy aunque creo que ya llevo una parrafada.
Byee byeee!!!

P.D: Esta entrada la empece a hacer ayer o al otro ya no lo se...

26 nov. 2010

Baka to test op

Baka to test op full.
[Perfect Area Complete]
Sin contra :)

BUenassssshhh!! Me he fijado en una cosa...tengo otro seguidor del blog : D
Eso me hace muy feliz y no se como lo he podido conseguir , estoy muy contenta. Quiero dar las gracias a todos los que se molestan en leer tonterias que pongo y descargar los pocos aportes que hago. Muchas gracias también al seguidor nuevo. MUCHAS GRACIAS!!

¿habéis visto Shiki?
El capitulo de esta semana no tiene perdida , es brutal como acaba . Bueno no quiero spoilear nada pero si os diré que la serie va de mal a peor...(pobre Tohru con esa depre que tiene T-T)
Waaaa---me voy a ver una serie nueva que no tengo ni idea ni de que va ni que género es pero me he enamorado de uno de los personajes *u*
Ya os informaré de ella cuando vea el Ova 1 y flipe.
Byee byee!!

P.D: Mañana veré Togainu!! es emjor verlo con sub en ingles ya que sale antes *risa malvada*

Trabajando el blog

Ahora mismo estoy trabajando el aspecto del blog para dale un toque navideño.
Trabajando en ello...

20 nov. 2010

NyaN NyaN dice el nekoneko


Wueeeee~~!!
Cuanto tiempo ... los días con tanto examen parecían eternos pero lo peor de todo es que no se acaban nunca , el último examen que tengo es de Valenciano con el señor V. y tengo miedo , el señor V. da mucho respeto y autoridad por eso yo procuro saludarle siempre y decirle adiós cuando se va de clase. Y eso no es ser pelota , eso es tener miedo hacia él .
Hoy tengo una super noticia que me pasó el jueves de la semana pasada y que no pude postearlo antes!
Ese jueves , al fin , pude conseguir el dinero que me faltaba para comprar el grandisimo pack de caja chula de figuras del Tales of Vesperia .
Ahí alado esta la foto que les hice ¿ falta una? si ya se que falta el nene Carol pero ese le toco a mi hermana . Nos hicimos un reparto .
Y bueno esta entrada la tenia en borrador desde la semana pasada y no he tenido tiempo aún de postearla , ademas de que con tato examen no puedo ni ver anime. De momento estoy sacando 8s en las notas ...ya veremos en el examen de mates . Hoy me he quedado en casa para estudiar la primera guerra mundial , las colonias y los movimientos del proletariado. No tengo mas tiempo para acabar la entrada o poneros unas fotos más T.T
BYee byee~~!

P.D: Se me acaban los examenes!!

16 nov. 2010

BuB BuB dice el perro

MInnaaaaa~~~~~~!!!
Me pude colar al orde!! *soy feliz*
Bueno hoy os quería comentar y hablar un poco sobre la serie que me he empezado a ver hace poco : Baka to test .
Wooo... esa es la serie chingona que veo ahora...ya se que no os he sorprendido mucho pero si sorprende. Todo comenzó con un "es la niña cuca de pelo rosa" en el Stepmania y después continuo con un " el personaje que tiene cara mona y lleva pantalones me gusta" y me puse a investigar sobre el personaje cuco con pantalones y resulto ser un nene . Vale ya se que suena raro pero me puse a ver la serie por el nene. Ese nene se llama Hideyoshi y según dicen en el propio resumen de la serie es el niño Bishonen y que esta como un dulce *u* Me lo comeriaaa~~

Aquí el nene Bishonen posandonos con el protagonista de la serie vestido de novia con minifalda y el otro nene que hace fotos lascivas cada dos por tres.... cacho novia ¿no?
El prota también esta un poco pirado ,compra fotos de Hideyoshi en poses y todo bizarro hahahah yo también me las compraría!!
Bueno resumiendo la serie en una palabra : Extraña
No se puede decir de otra forma.

Tachann!! Pronto cambiaré la playlist!! La próxima va a ser de grupos J-pop así canciones variadas y eso...no se que decir hoy . He aprobado el examen de lectura de valenciano y mira que no me lo había leído , eso es la suerte que llevo encima siempre.
Bueno piro que aún no he visto el capi nuevo de Bakuman :3
Byee byee~~!!

P.D: Aghhhh!! no me he visto aún Togainu, no puede ser..... los ex me matan por momentos.

Carai! Se me olvidaba decir algo ^^U
He conseguido 62 favs (de momento) en una misma img en el deviant!!
Es mi super custom hecho hace unos días pero que conste que si no es de vuestro agrado no hace falta que critiquéis plis (y eso lo digo porque un mal día me vino un profesor americano y me empezó a soltar el sermón de mi vida en ingles por haber dibujado algo yaoi y colgarlo al deviant)

Os presento la img (es un Saiko x Shujin)
*¬* si me encanta hasta a mi!!

Bueno ara si me piro ya--
Byeee byeee~~!!

14 nov. 2010

DRRR! ed 1 [ Trust Me ]

Durarara! Ed 1
Trush Me - Full ver.

01/08/2011
Mediafire :DELETE




14/11/2010

Baiba~~!! Estoy tan contenta *mirando los seguidores*
Se a unido alguien al fin!! Muchisimas gracias por poner a seguir mi blog y ahora gracias a ti estaré más contenta! Sip estoy muy emocionada. Siempre os decia " no cuesta nada" y realmente no cuesta nada poner a seguir ni comentar ... No se cuantas veces lo tendré que decir para quedarme tranquila pero enserio muchas gracias !

A consecuencia de eso mi consciencia Pepito grillo me ha hecho subir una canción nueva .Esta vez le toca a la serie de Durarara! o Drrr! que me acabe hace poco y que por cierto os la recomiendo.
Es el ed1 de la serie y bueno como no tengo mas tiempo para decir algo más os lo dejo ahí para que lo disfruteis : 3
We LOVE IZAYA~~
...
o por lo menos yo XD

Byee byee~~!!

P.D: Aún no he podido ver Togainu y encima me he viciado a otra serie que os diré sobre ella más adelante...

12 nov. 2010

Akira es el objetivo...

¿Como puedo seguir viviendo después de todo lo que me ha pasado?
En fin...la gente tiene días y días .

Waaa~~!! Minna~~!!
(aquellos comentarios de arriba los a hecho mi yo depre)
Bueno ahora yo voy a empezar la semana de exámenes y encima me he descargado el stepmania y me he viciado como una mala cosa. Eso no es bueno. Me entra Larra y otros tipets en el examen de literatura y me lio con tanta historia además de que también hay otros lios por ahí de frases para analizar y esas cosas. ¿nee? ¿me puse a hablar de exámenes? Buuuuu~~ como se nota que estoy estresada .
¿habéis visto shiki? ¿habéis visto el avance de los siguientes capis en la web?
AKIRA ES EL OBJETIVO!!! es por eso que lo he puesto ahí alado con cara de "yo no plis" hahahah-- Querrá hacer igual que Toshi . (!) pero aunque haga ese tipo de barbaridades en sitios extraños y en situaciones chungas nosotros te apoyamos y te liberaremos de esa situación en la que te encuentras en el avance. Por si nadie no lo ha visto Akira sale amordazado en plan "voy a ser violado como le hacen a los niños peques" .
En fin me piro que me echan~~
BYee byeee~~
P.D : Espero que me dejen ver Togainu mañana que si nos peto con tanta presión T.T

NO OS OLVIDÉIS QUE NATSUNO ESTA DE PARTE DE TOSHI * spoiler

5 nov. 2010

Togainu no chi OP ANIME


Togainu no chi OP full ver.
[GRANRODEO] Rose Hip-Bullet
Sin contra

Siiii------!!!
La super canción que me tiene todo el día pegada al Ipod me dijo ayer "subeme o te arrepentirás" me dio un xoc en la mente que hizo que pasara más miedo que con el capítulo de esta semana de Shiki y sin controlar mis sentimientos y actos...la subí.
Espero que la disfruteis y yo ahora me voy a acabar de ver Durarara!! que se me esta poniendo muyyyyyy interesanteeee :3

¿ Visteis Shiki?
DIossssssss~~~!! como estuvo el capítulo casi que me pongo a llorar de la impresión que me dio el medico toh loco. Toshi no pierdas el control de esa forma que Seishin esta ahí para "apoyarte"(...) creo que después de lo que a pasado Seishin le tendrá miedo y quiza se aparte de él y de sus relaciones que de momento solo son de amistad...
Ya veremos como avanza porque Natsuno ya sabemos todos a estas alturas creo yo que la palmo en el capítulo anterior. ¿Como se puede morir el prota?
Mañana o esta tarde o cuando sea más cosas :)
Byee byee~~!!

P.D : A ver Drrr!! y después los perritos apaleados...hoy me compro un petit nendo de L *u*

1 nov. 2010

Togainu no Chi Artbook download

Togainu no chi artook [Nitro+CHIRAL works]
Contaseña : angee-ushiromiya.blogspot.ShikiEsGuapo.AxS

Un nuevo item para descargar y esta vez en un magnifico artbook con una super sorpresa en la página 12 ...huhuhu.
En este artbook están los bocetos de los personajes para el juego (con una sorpresa en los bocetos de Akira) y los bocetos para las imágenes del juego con ellas boceteadas y pintadas con un puñado de extras de imágenes nunca vistas :3
Lo he subido porque es un artbook muy bueno y para quien le guste el juego opino que se lo debería de descargar y si puede ser posible comprarse el original ya que es siempre mejor apoyar lo original. Le he puesto una contra muy chingona XD

Quiero el juego!!! Lo he estado buscando y si lo he encontrado pero yo lo quiero en inglés no en japo que si nos no me entero de nada...necesito un patch para el magnifico juego para +18 *¬*
Conseguí el single del op que ahora mismo lo estoy escuchando y me encanta también lo subiré pero más tarde que ahora he de ver el capitulo nuevo de Bakuman :)
Byee byee~~!!

P.D : Espero que os guste tanto como a mi